ISO-10303-21;
HEADER;
FILE_DESCRIPTION (( 'STEP AP203' ),
    '1' );
FILE_NAME ('Q-QZWP-R4-20-795-M.STEP',
    '2020-12-23T01:26:20',
    ( '' ),
    ( '' ),
    'SwSTEP 2.0',
    'SolidWorks 2020',
    '' );
FILE_SCHEMA (( 'CONFIG_CONTROL_DESIGN' ));
ENDSEC;

DATA;
#1 = CARTESIAN_POINT ( 'NONE',  ( -3.000000000000000000, 0.000000000000000000, 0.000000000000000000 ) ) ;
#2 = CLOSED_SHELL ( 'NONE', ( #330, #205, #93, #192, #174, #122, #78, #298, #58, #126 ) ) ;
#3 = VERTEX_POINT ( 'NONE', #199 ) ;
#4 = CARTESIAN_POINT ( 'NONE',  ( 2.999999999999999112, 0.000000000000000000, 10.00000000000000000 ) ) ;
#5 = CYLINDRICAL_SURFACE ( 'NONE', #186, 10.00000000000000000 ) ;
#6 = EDGE_CURVE ( 'NONE', #314, #210, #112, .T. ) ;
#7 = CARTESIAN_POINT ( 'NONE',  ( -2.500000000000000444, 1.224646799147353256E-15, -10.00000000000000000 ) ) ;
#8 = LINE ( 'NONE', #155, #301 ) ;
#9 = APPROVAL_ROLE ( '' ) ;
#10 = APPROVAL_STATUS ( 'not_yet_approved' ) ;
#11 = LOCAL_TIME ( 9, 26, 20.00000000000000000, #203 ) ;
#12 = EDGE_CURVE ( 'NONE', #213, #74, #197, .T. ) ;
#13 = CYLINDRICAL_SURFACE ( 'NONE', #45, 12.69999999999999929 ) ;
#14 = DIRECTION ( 'NONE',  ( 0.000000000000000000, 0.000000000000000000, 1.000000000000000000 ) ) ;
#15 = PERSON_AND_ORGANIZATION_ROLE ( 'classification_officer' ) ;
#16 = AXIS2_PLACEMENT_3D ( 'NONE', #204, #284, #235 ) ;
#17 = ADVANCED_BREP_SHAPE_REPRESENTATION ( 'Q-QZWP-R4-20-795-M', ( #116, #316 ), #244 ) ;
#18 = EDGE_LOOP ( 'NONE', ( #26, #278 ) ) ;
#19 = DIRECTION ( 'NONE',  ( -0.000000000000000000, 0.000000000000000000, 1.000000000000000000 ) ) ;
#20 = CIRCLE ( 'NONE', #200, 10.00000000000000000 ) ;
#21 = EDGE_LOOP ( 'NONE', ( #132, #173, #259, #181 ) ) ;
#22 = APPROVAL_STATUS ( 'not_yet_approved' ) ;
#23 = CARTESIAN_POINT ( 'NONE',  ( -3.000000000000000444, 0.000000000000000000, 0.000000000000000000 ) ) ;
#24 = AXIS2_PLACEMENT_3D ( 'NONE', #133, #142, #257 ) ;
#25 = DIRECTION ( 'NONE',  ( -1.000000000000000000, -0.000000000000000000, -0.000000000000000000 ) ) ;
#26 = ORIENTED_EDGE ( 'NONE', *, *, #135, .T. ) ;
#27 = CARTESIAN_POINT ( 'NONE',  ( 2.999999999999999112, 1.224646799147353256E-15, -10.00000000000000000 ) ) ;
#28 = ORIENTED_EDGE ( 'NONE', *, *, #149, .T. ) ;
#29 = DIRECTION ( 'NONE',  ( 0.000000000000000000, 0.000000000000000000, 1.000000000000000000 ) ) ;
#30 = DIRECTION ( 'NONE',  ( -0.000000000000000000, 0.000000000000000000, 1.000000000000000000 ) ) ;
#31 = CIRCLE ( 'NONE', #68, 10.00000000000000000 ) ;
#32 = PRODUCT ( 'Q-QZWP-R4-20-795-M', 'Q-QZWP-R4-20-795-M', '', ( #120 ) ) ;
#33 = EDGE_CURVE ( 'NONE', #314, #74, #202, .T. ) ;
#34 = DIRECTION ( 'NONE',  ( -1.000000000000000000, -0.000000000000000000, -0.000000000000000000 ) ) ;
#35 = CARTESIAN_POINT ( 'NONE',  ( 3.000000000000000000, 1.555301434917138433E-15, -12.69999999999999929 ) ) ;
#36 = AXIS2_PLACEMENT_3D ( 'NONE', #189, #313, #269 ) ;
#37 = PERSON_AND_ORGANIZATION ( #91, #160 ) ;
#38 = LOCAL_TIME ( 9, 26, 20.00000000000000000, #258 ) ;
#39 = PERSON_AND_ORGANIZATION ( #91, #160 ) ;
#40 = ORIENTED_EDGE ( 'NONE', *, *, #180, .T. ) ;
#41 = CARTESIAN_POINT ( 'NONE',  ( 0.000000000000000000, 0.000000000000000000, 0.000000000000000000 ) ) ;
#42 = DIRECTION ( 'NONE',  ( -1.000000000000000000, -0.000000000000000000, -0.000000000000000000 ) ) ;
#43 = LOCAL_TIME ( 9, 26, 20.00000000000000000, #144 ) ;
#44 = CARTESIAN_POINT ( 'NONE',  ( -1.614212418857619014, 0.000000000000000000, 0.000000000000000000 ) ) ;
#45 = AXIS2_PLACEMENT_3D ( 'NONE', #221, #276, #198 ) ;
#46 = FACE_BOUND ( 'NONE', #131, .T. ) ;
#47 = PERSON_AND_ORGANIZATION_ROLE ( 'creator' ) ;
#48 = DIRECTION ( 'NONE',  ( -1.000000000000000000, 0.000000000000000000, -0.000000000000000000 ) ) ;
#49 = EDGE_LOOP ( 'NONE', ( #224, #176 ) ) ;
#50 = VERTEX_POINT ( 'NONE', #335 ) ;
#51 = ORIENTED_EDGE ( 'NONE', *, *, #164, .F. ) ;
#52 = AXIS2_PLACEMENT_3D ( 'NONE', #111, #291, #29 ) ;
#53 = DIRECTION ( 'NONE',  ( 0.000000000000000000, 0.000000000000000000, -1.000000000000000000 ) ) ;
#54 = APPROVAL ( #22, 'UNSPECIFIED' ) ;
#55 = CARTESIAN_POINT ( 'NONE',  ( 2.999999999999999112, 0.000000000000000000, 0.000000000000000000 ) ) ;
#56 = LOCAL_TIME ( 9, 26, 20.00000000000000000, #219 ) ;
#57 = DIRECTION ( 'NONE',  ( -1.000000000000000000, -0.000000000000000000, -0.000000000000000000 ) ) ;
#58 = ADVANCED_FACE ( 'NONE', ( #237, #46 ), #100, .F. ) ;
#59 = FACE_OUTER_BOUND ( 'NONE', #49, .T. ) ;
#60 = PRODUCT_DEFINITION_SHAPE ( 'NONE', 'NONE',  #304 ) ;
#61 = CARTESIAN_POINT ( 'NONE',  ( -1.614212418857619014, 1.224646799147353256E-15, -10.00000000000000000 ) ) ;
#62 = AXIS2_PLACEMENT_3D ( 'NONE', #69, #25, #75 ) ;
#63 = CARTESIAN_POINT ( 'NONE',  ( -1.614212418857619014, 0.000000000000000000, 0.000000000000000000 ) ) ;
#64 = CALENDAR_DATE ( 2020, 23, 12 ) ;
#65 = VECTOR ( 'NONE', #79, 1000.000000000000000 ) ;
#66 = CIRCLE ( 'NONE', #230, 12.69999999999999929 ) ;
#67 = DIRECTION ( 'NONE',  ( 1.000000000000000000, 0.000000000000000000, 0.000000000000000000 ) ) ;
#68 = AXIS2_PLACEMENT_3D ( 'NONE', #315, #248, #53 ) ;
#69 = CARTESIAN_POINT ( 'NONE',  ( 2.500000000000000888, 0.000000000000000000, 0.000000000000000000 ) ) ;
#70 = ORIENTED_EDGE ( 'NONE', *, *, #147, .F. ) ;
#71 = CARTESIAN_POINT ( 'NONE',  ( -3.000000000000000000, 10.00000000000000000, 0.000000000000000000 ) ) ;
#72 = APPLICATION_CONTEXT ( 'configuration controlled 3d designs of mechanical parts and assemblies' ) ;
#73 = CALENDAR_DATE ( 2020, 23, 12 ) ;
#74 = VERTEX_POINT ( 'NONE', #101 ) ;
#75 = DIRECTION ( 'NONE',  ( 0.000000000000000000, 0.000000000000000000, 1.000000000000000000 ) ) ;
#76 = PERSON_AND_ORGANIZATION_ROLE ( 'design_supplier' ) ;
#77 = DIRECTION ( 'NONE',  ( -1.000000000000000000, -0.000000000000000000, -0.000000000000000000 ) ) ;
#78 = ADVANCED_FACE ( 'NONE', ( #152, #331 ), #334, .F. ) ;
#79 = DIRECTION ( 'NONE',  ( -1.000000000000000000, -0.000000000000000000, -0.000000000000000000 ) ) ;
#80 = ORIENTED_EDGE ( 'NONE', *, *, #256, .T. ) ;
#81 = DIRECTION ( 'NONE',  ( 0.000000000000000000, 0.000000000000000000, 1.000000000000000000 ) ) ;
#82 = ORIENTED_EDGE ( 'NONE', *, *, #33, .F. ) ;
#83 = CARTESIAN_POINT ( 'NONE',  ( -1.614212418857619014, 0.000000000000000000, 0.000000000000000000 ) ) ;
#84 = AXIS2_PLACEMENT_3D ( 'NONE', #285, #48, #19 ) ;
#85 = CARTESIAN_POINT ( 'NONE',  ( 3.000000000000000000, 0.000000000000000000, 12.69999999999999929 ) ) ;
#86 = CC_DESIGN_APPROVAL ( #311, ( #139 ) ) ;
#87 = AXIS2_PLACEMENT_3D ( 'NONE', #63, #119, #321 ) ;
#88 = DATE_AND_TIME ( #320, #56 ) ;
#89 = EDGE_CURVE ( 'NONE', #128, #50, #247, .T. ) ;
#90 = PERSON_AND_ORGANIZATION_ROLE ( 'creator' ) ;
#91 = PERSON ( 'UNSPECIFIED', 'UNSPECIFIED', 'UNSPECIFIED', ('UNSPECIFIED'), ('UNSPECIFIED'), ('UNSPECIFIED') ) ;
#92 =( NAMED_UNIT ( * ) PLANE_ANGLE_UNIT ( ) SI_UNIT ( $, .RADIAN. ) );
#93 = ADVANCED_FACE ( 'NONE', ( #129 ), #312, .F. ) ;
#94 = ORIENTED_EDGE ( 'NONE', *, *, #277, .F. ) ;
#95 = DIRECTION ( 'NONE',  ( 0.000000000000000000, 0.000000000000000000, 1.000000000000000000 ) ) ;
#96 = AXIS2_PLACEMENT_3D ( 'NONE', #266, #115, #30 ) ;
#97 = EDGE_LOOP ( 'NONE', ( #179, #107 ) ) ;
#98 = DATE_AND_TIME ( #73, #43 ) ;
#99 = CC_DESIGN_DATE_AND_TIME_ASSIGNMENT ( #98, #309, ( #275 ) ) ;
#100 = PLANE ( 'NONE',  #84 ) ;
#101 = CARTESIAN_POINT ( 'NONE',  ( -3.000000000000000444, 0.000000000000000000, 10.00000000000000000 ) ) ;
#102 = FACE_OUTER_BOUND ( 'NONE', #227, .T. ) ;
#103 = DESIGN_CONTEXT ( 'detailed design', #72, 'design' ) ;
#104 = VERTEX_POINT ( 'NONE', #27 ) ;
#105 = ORIENTED_EDGE ( 'NONE', *, *, #6, .F. ) ;
#106 = DIRECTION ( 'NONE',  ( 0.000000000000000000, 0.000000000000000000, 1.000000000000000000 ) ) ;
#107 = ORIENTED_EDGE ( 'NONE', *, *, #190, .F. ) ;
#108 = DIRECTION ( 'NONE',  ( -1.000000000000000000, -0.000000000000000000, -0.000000000000000000 ) ) ;
#109 = EDGE_LOOP ( 'NONE', ( #302, #325, #212, #94 ) ) ;
#110 = CC_DESIGN_PERSON_AND_ORGANIZATION_ASSIGNMENT ( #326, #76, ( #139 ) ) ;
#111 = CARTESIAN_POINT ( 'NONE',  ( 3.000000000000000000, 0.000000000000000000, 0.000000000000000000 ) ) ;
#112 = CIRCLE ( 'NONE', #16, 10.00000000000000000 ) ;
#113 = CARTESIAN_POINT ( 'NONE',  ( -3.000000000000000444, 1.224646799147353256E-15, -10.00000000000000000 ) ) ;
#114 = AXIS2_PLACEMENT_3D ( 'NONE', #23, #150, #209 ) ;
#115 = DIRECTION ( 'NONE',  ( -1.000000000000000000, 0.000000000000000000, -0.000000000000000000 ) ) ;
#116 = MANIFOLD_SOLID_BREP ( 'Ðý×', #2 ) ;
#117 = AXIS2_PLACEMENT_3D ( 'NONE', #137, #140, #81 ) ;
#118 = EDGE_CURVE ( 'NONE', #104, #172, #171, .T. ) ;
#119 = DIRECTION ( 'NONE',  ( -1.000000000000000000, -0.000000000000000000, -0.000000000000000000 ) ) ;
#120 = MECHANICAL_CONTEXT ( 'NONE', #157, 'mechanical' ) ;
#121 = AXIS2_PLACEMENT_3D ( 'NONE', #1, #108, #211 ) ;
#122 = ADVANCED_FACE ( 'NONE', ( #125 ), #281, .F. ) ;
#123 = VERTEX_POINT ( 'NONE', #229 ) ;
#124 = EDGE_LOOP ( 'NONE', ( #241, #188 ) ) ;
#125 = FACE_OUTER_BOUND ( 'NONE', #255, .T. ) ;
#126 = ADVANCED_FACE ( 'NONE', ( #102 ), #282, .F. ) ;
#127 = DATE_AND_TIME ( #228, #38 ) ;
#128 = VERTEX_POINT ( 'NONE', #207 ) ;
#129 = FACE_OUTER_BOUND ( 'NONE', #109, .T. ) ;
#130 = APPROVAL_ROLE ( '' ) ;
#131 = EDGE_LOOP ( 'NONE', ( #317, #303 ) ) ;
#132 = ORIENTED_EDGE ( 'NONE', *, *, #180, .F. ) ;
#133 = CARTESIAN_POINT ( 'NONE',  ( -2.500000000000000444, 10.00000000000000000, 0.000000000000000000 ) ) ;
#134 = ORIENTED_EDGE ( 'NONE', *, *, #267, .F. ) ;
#135 = EDGE_CURVE ( 'NONE', #3, #123, #66, .T. ) ;
#136 = CARTESIAN_POINT ( 'NONE',  ( -1.614212418857619014, 0.000000000000000000, 12.69999999999999929 ) ) ;
#137 = CARTESIAN_POINT ( 'NONE',  ( -1.614212418857619014, 0.000000000000000000, 0.000000000000000000 ) ) ;
#138 = VECTOR ( 'NONE', #261, 1000.000000000000000 ) ;
#139 = PRODUCT_DEFINITION_FORMATION_WITH_SPECIFIED_SOURCE ( 'ANY', '', #32, .NOT_KNOWN. ) ;
#140 = DIRECTION ( 'NONE',  ( -1.000000000000000000, -0.000000000000000000, -0.000000000000000000 ) ) ;
#141 = ORIENTED_EDGE ( 'NONE', *, *, #6, .T. ) ;
#142 = DIRECTION ( 'NONE',  ( 1.000000000000000000, 0.000000000000000000, 0.000000000000000000 ) ) ;
#143 = EDGE_CURVE ( 'NONE', #123, #3, #168, .T. ) ;
#144 = COORDINATED_UNIVERSAL_TIME_OFFSET ( 8, 0, .AHEAD. ) ;
#145 = CC_DESIGN_SECURITY_CLASSIFICATION ( #275, ( #139 ) ) ;
#146 = EDGE_LOOP ( 'NONE', ( #141, #290, #236, #82 ) ) ;
#147 = EDGE_CURVE ( 'NONE', #253, #3, #214, .T. ) ;
#148 = PERSON_AND_ORGANIZATION ( #91, #160 ) ;
#149 = EDGE_CURVE ( 'NONE', #210, #314, #31, .T. ) ;
#150 = DIRECTION ( 'NONE',  ( -1.000000000000000000, -0.000000000000000000, -0.000000000000000000 ) ) ;
#151 = ORIENTED_EDGE ( 'NONE', *, *, #149, .F. ) ;
#152 = FACE_BOUND ( 'NONE', #124, .T. ) ;
#153 = ORIENTED_EDGE ( 'NONE', *, *, #252, .T. ) ;
#154 = CIRCLE ( 'NONE', #52, 12.69999999999999929 ) ;
#155 = CARTESIAN_POINT ( 'NONE',  ( -1.614212418857619014, 1.555301434917138433E-15, -12.69999999999999929 ) ) ;
#156 = DIRECTION ( 'NONE',  ( -1.000000000000000000, -0.000000000000000000, -0.000000000000000000 ) ) ;
#157 = APPLICATION_CONTEXT ( 'configuration controlled 3d designs of mechanical parts and assemblies' ) ;
#158 = DIRECTION ( 'NONE',  ( 0.000000000000000000, 0.000000000000000000, 1.000000000000000000 ) ) ;
#159 = AXIS2_PLACEMENT_3D ( 'NONE', #185, #216, #319 ) ;
#160 = ORGANIZATION ( 'UNSPECIFIED', 'UNSPECIFIED', '' ) ;
#161 = VECTOR ( 'NONE', #156, 1000.000000000000000 ) ;
#162 = DIRECTION ( 'NONE',  ( 0.000000000000000000, 0.000000000000000000, 1.000000000000000000 ) ) ;
#163 = CC_DESIGN_APPROVAL ( #54, ( #275 ) ) ;
#164 = EDGE_CURVE ( 'NONE', #210, #213, #265, .T. ) ;
#165 = CC_DESIGN_PERSON_AND_ORGANIZATION_ASSIGNMENT ( #39, #169, ( #32 ) ) ;
#166 = LINE ( 'NONE', #61, #65 ) ;
#167 = APPROVAL_STATUS ( 'not_yet_approved' ) ;
#168 = CIRCLE ( 'NONE', #121, 12.69999999999999929 ) ;
#169 = PERSON_AND_ORGANIZATION_ROLE ( 'design_owner' ) ;
#170 = FACE_OUTER_BOUND ( 'NONE', #21, .T. ) ;
#171 = CIRCLE ( 'NONE', #239, 10.00000000000000000 ) ;
#172 = VERTEX_POINT ( 'NONE', #4 ) ;
#173 = ORIENTED_EDGE ( 'NONE', *, *, #190, .T. ) ;
#174 = ADVANCED_FACE ( 'NONE', ( #318 ), #270, .F. ) ;
#175 = CARTESIAN_POINT ( 'NONE',  ( 2.999999999999999112, 0.000000000000000000, 0.000000000000000000 ) ) ;
#176 = ORIENTED_EDGE ( 'NONE', *, *, #89, .F. ) ;
#177 = DIRECTION ( 'NONE',  ( 1.000000000000000000, 0.000000000000000000, 0.000000000000000000 ) ) ;
#178 = SHAPE_DEFINITION_REPRESENTATION ( #60, #17 ) ;
#179 = ORIENTED_EDGE ( 'NONE', *, *, #256, .F. ) ;
#180 = EDGE_CURVE ( 'NONE', #329, #123, #8, .T. ) ;
#181 = ORIENTED_EDGE ( 'NONE', *, *, #143, .F. ) ;
#182 = EDGE_CURVE ( 'NONE', #172, #104, #20, .T. ) ;
#183 = ORIENTED_EDGE ( 'NONE', *, *, #182, .F. ) ;
#184 = ORIENTED_EDGE ( 'NONE', *, *, #277, .T. ) ;
#185 = CARTESIAN_POINT ( 'NONE',  ( -3.000000000000000444, 0.000000000000000000, 0.000000000000000000 ) ) ;
#186 = AXIS2_PLACEMENT_3D ( 'NONE', #83, #57, #158 ) ;
#187 = DIRECTION ( 'NONE',  ( -1.000000000000000000, -0.000000000000000000, -0.000000000000000000 ) ) ;
#188 = ORIENTED_EDGE ( 'NONE', *, *, #12, .F. ) ;
#189 = CARTESIAN_POINT ( 'NONE',  ( 2.500000000000000888, 0.000000000000000000, 0.000000000000000000 ) ) ;
#190 = EDGE_CURVE ( 'NONE', #329, #253, #154, .T. ) ;
#191 = CIRCLE ( 'NONE', #206, 12.69999999999999929 ) ;
#192 = ADVANCED_FACE ( 'NONE', ( #59 ), #289, .F. ) ;
#193 = FACE_OUTER_BOUND ( 'NONE', #146, .T. ) ;
#194 = PERSON_AND_ORGANIZATION ( #91, #160 ) ;
#195 = APPROVAL_DATE_TIME ( #88, #274 ) ;
#196 = CYLINDRICAL_SURFACE ( 'NONE', #87, 12.69999999999999929 ) ;
#197 = CIRCLE ( 'NONE', #114, 10.00000000000000000 ) ;
#198 = DIRECTION ( 'NONE',  ( 0.000000000000000000, 0.000000000000000000, 1.000000000000000000 ) ) ;
#199 = CARTESIAN_POINT ( 'NONE',  ( -3.000000000000000000, 0.000000000000000000, 12.69999999999999929 ) ) ;
#200 = AXIS2_PLACEMENT_3D ( 'NONE', #55, #187, #106 ) ;
#201 = DATE_AND_TIME ( #260, #11 ) ;
#202 = LINE ( 'NONE', #305, #138 ) ;
#203 = COORDINATED_UNIVERSAL_TIME_OFFSET ( 8, 0, .AHEAD. ) ;
#204 = CARTESIAN_POINT ( 'NONE',  ( -2.500000000000000444, 0.000000000000000000, 0.000000000000000000 ) ) ;
#205 = ADVANCED_FACE ( 'NONE', ( #193 ), #5, .F. ) ;
#206 = AXIS2_PLACEMENT_3D ( 'NONE', #292, #34, #218 ) ;
#207 = CARTESIAN_POINT ( 'NONE',  ( 2.500000000000000888, 1.224646799147353256E-15, -10.00000000000000000 ) ) ;
#208 = EDGE_CURVE ( 'NONE', #50, #128, #328, .T. ) ;
#209 = DIRECTION ( 'NONE',  ( 0.000000000000000000, 0.000000000000000000, 1.000000000000000000 ) ) ;
#210 = VERTEX_POINT ( 'NONE', #7 ) ;
#211 = DIRECTION ( 'NONE',  ( 0.000000000000000000, 0.000000000000000000, 1.000000000000000000 ) ) ;
#212 = ORIENTED_EDGE ( 'NONE', *, *, #89, .T. ) ;
#213 = VERTEX_POINT ( 'NONE', #113 ) ;
#214 = LINE ( 'NONE', #136, #251 ) ;
#215 = AXIS2_PLACEMENT_3D ( 'NONE', #234, #42, #286 ) ;
#216 = DIRECTION ( 'NONE',  ( -1.000000000000000000, -0.000000000000000000, -0.000000000000000000 ) ) ;
#217 = CC_DESIGN_APPROVAL ( #274, ( #304 ) ) ;
#218 = DIRECTION ( 'NONE',  ( 0.000000000000000000, 0.000000000000000000, 1.000000000000000000 ) ) ;
#219 = COORDINATED_UNIVERSAL_TIME_OFFSET ( 8, 0, .AHEAD. ) ;
#220 = CARTESIAN_POINT ( 'NONE',  ( -1.614212418857619014, 0.000000000000000000, 10.00000000000000000 ) ) ;
#221 = CARTESIAN_POINT ( 'NONE',  ( -1.614212418857619014, 0.000000000000000000, 0.000000000000000000 ) ) ;
#222 = FACE_OUTER_BOUND ( 'NONE', #254, .T. ) ;
#223 = APPLICATION_PROTOCOL_DEFINITION ( 'international standard', 'config_control_design', 1994, #72 ) ;
#224 = ORIENTED_EDGE ( 'NONE', *, *, #208, .F. ) ;
#225 = PERSON_AND_ORGANIZATION ( #91, #160 ) ;
#226 = APPROVAL_PERSON_ORGANIZATION ( #37, #311, #333 ) ;
#227 = EDGE_LOOP ( 'NONE', ( #105, #151 ) ) ;
#228 = CALENDAR_DATE ( 2020, 23, 12 ) ;
#229 = CARTESIAN_POINT ( 'NONE',  ( -3.000000000000000000, 1.555301434917138433E-15, -12.69999999999999929 ) ) ;
#230 = AXIS2_PLACEMENT_3D ( 'NONE', #246, #268, #162 ) ;
#231 = PERSON_AND_ORGANIZATION ( #91, #160 ) ;
#232 = CC_DESIGN_PERSON_AND_ORGANIZATION_ASSIGNMENT ( #194, #90, ( #304 ) ) ;
#233 = APPROVAL_DATE_TIME ( #201, #311 ) ;
#234 = CARTESIAN_POINT ( 'NONE',  ( -1.614212418857619014, 0.000000000000000000, 0.000000000000000000 ) ) ;
#235 = DIRECTION ( 'NONE',  ( 0.000000000000000000, 0.000000000000000000, -1.000000000000000000 ) ) ;
#236 = ORIENTED_EDGE ( 'NONE', *, *, #12, .T. ) ;
#237 = FACE_OUTER_BOUND ( 'NONE', #97, .T. ) ;
#238 = CC_DESIGN_PERSON_AND_ORGANIZATION_ASSIGNMENT ( #225, #47, ( #139 ) ) ;
#239 = AXIS2_PLACEMENT_3D ( 'NONE', #175, #77, #263 ) ;
#240 = CARTESIAN_POINT ( 'NONE',  ( -1.614212418857619014, 1.224646799147353256E-15, -10.00000000000000000 ) ) ;
#241 = ORIENTED_EDGE ( 'NONE', *, *, #252, .F. ) ;
#242 = APPROVAL_PERSON_ORGANIZATION ( #231, #54, #130 ) ;
#243 = DIRECTION ( 'NONE',  ( -1.000000000000000000, -0.000000000000000000, -0.000000000000000000 ) ) ;
#244 =( GEOMETRIC_REPRESENTATION_CONTEXT ( 3 ) GLOBAL_UNCERTAINTY_ASSIGNED_CONTEXT ( ( #245 ) ) GLOBAL_UNIT_ASSIGNED_CONTEXT ( ( #323, #92, #249 ) ) REPRESENTATION_CONTEXT ( 'NONE', 'WORKASPACE' ) );
#245 = UNCERTAINTY_MEASURE_WITH_UNIT (LENGTH_MEASURE( 1.000000000000000082E-05 ), #323, 'distance_accuracy_value', 'NONE');
#246 = CARTESIAN_POINT ( 'NONE',  ( -3.000000000000000000, 0.000000000000000000, 0.000000000000000000 ) ) ;
#247 = CIRCLE ( 'NONE', #62, 10.00000000000000000 ) ;
#248 = DIRECTION ( 'NONE',  ( 1.000000000000000000, 0.000000000000000000, 0.000000000000000000 ) ) ;
#249 =( NAMED_UNIT ( * ) SI_UNIT ( $, .STERADIAN. ) SOLID_ANGLE_UNIT ( ) );
#250 = APPLICATION_PROTOCOL_DEFINITION ( 'international standard', 'config_control_design', 1994, #157 ) ;
#251 = VECTOR ( 'NONE', #243, 1000.000000000000000 ) ;
#252 = EDGE_CURVE ( 'NONE', #74, #213, #308, .T. ) ;
#253 = VERTEX_POINT ( 'NONE', #85 ) ;
#254 = EDGE_LOOP ( 'NONE', ( #80, #40, #264, #70 ) ) ;
#255 = EDGE_LOOP ( 'NONE', ( #51, #28, #262, #153 ) ) ;
#256 = EDGE_CURVE ( 'NONE', #253, #329, #191, .T. ) ;
#257 = DIRECTION ( 'NONE',  ( 0.000000000000000000, 0.000000000000000000, -1.000000000000000000 ) ) ;
#258 = COORDINATED_UNIVERSAL_TIME_OFFSET ( 8, 0, .AHEAD. ) ;
#259 = ORIENTED_EDGE ( 'NONE', *, *, #147, .T. ) ;
#260 = CALENDAR_DATE ( 2020, 23, 12 ) ;
#261 = DIRECTION ( 'NONE',  ( -1.000000000000000000, -0.000000000000000000, -0.000000000000000000 ) ) ;
#262 = ORIENTED_EDGE ( 'NONE', *, *, #33, .T. ) ;
#263 = DIRECTION ( 'NONE',  ( 0.000000000000000000, 0.000000000000000000, 1.000000000000000000 ) ) ;
#264 = ORIENTED_EDGE ( 'NONE', *, *, #135, .F. ) ;
#265 = LINE ( 'NONE', #240, #161 ) ;
#266 = CARTESIAN_POINT ( 'NONE',  ( 2.500000000000000444, 10.00000000000000000, 0.000000000000000000 ) ) ;
#267 = EDGE_CURVE ( 'NONE', #104, #128, #166, .T. ) ;
#268 = DIRECTION ( 'NONE',  ( -1.000000000000000000, -0.000000000000000000, -0.000000000000000000 ) ) ;
#269 = DIRECTION ( 'NONE',  ( 0.000000000000000000, 0.000000000000000000, 1.000000000000000000 ) ) ;
#270 = CYLINDRICAL_SURFACE ( 'NONE', #117, 10.00000000000000000 ) ;
#271 = CARTESIAN_POINT ( 'NONE',  ( -2.500000000000000444, 0.000000000000000000, 10.00000000000000000 ) ) ;
#272 = DATE_AND_TIME ( #64, #332 ) ;
#273 = AXIS2_PLACEMENT_3D ( 'NONE', #71, #177, #307 ) ;
#274 = APPROVAL ( #10, 'UNSPECIFIED' ) ;
#275 = SECURITY_CLASSIFICATION ( '', '', #306 ) ;
#276 = DIRECTION ( 'NONE',  ( -1.000000000000000000, -0.000000000000000000, -0.000000000000000000 ) ) ;
#277 = EDGE_CURVE ( 'NONE', #172, #50, #324, .T. ) ;
#278 = ORIENTED_EDGE ( 'NONE', *, *, #143, .T. ) ;
#279 = PERSON_AND_ORGANIZATION ( #91, #160 ) ;
#280 = APPROVAL_DATE_TIME ( #127, #54 ) ;
#281 = CYLINDRICAL_SURFACE ( 'NONE', #215, 10.00000000000000000 ) ;
#282 = PLANE ( 'NONE',  #24 ) ;
#283 = APPROVAL_PERSON_ORGANIZATION ( #279, #274, #9 ) ;
#284 = DIRECTION ( 'NONE',  ( 1.000000000000000000, 0.000000000000000000, 0.000000000000000000 ) ) ;
#285 = CARTESIAN_POINT ( 'NONE',  ( 2.999999999999999112, 12.69999999999999929, 0.000000000000000000 ) ) ;
#286 = DIRECTION ( 'NONE',  ( 0.000000000000000000, 0.000000000000000000, 1.000000000000000000 ) ) ;
#287 = ORIENTED_EDGE ( 'NONE', *, *, #208, .T. ) ;
#288 = VECTOR ( 'NONE', #299, 1000.000000000000000 ) ;
#289 = PLANE ( 'NONE',  #96 ) ;
#290 = ORIENTED_EDGE ( 'NONE', *, *, #164, .T. ) ;
#291 = DIRECTION ( 'NONE',  ( -1.000000000000000000, -0.000000000000000000, -0.000000000000000000 ) ) ;
#292 = CARTESIAN_POINT ( 'NONE',  ( 3.000000000000000000, 0.000000000000000000, 0.000000000000000000 ) ) ;
#293 = DIRECTION ( 'NONE',  ( -1.000000000000000000, -0.000000000000000000, -0.000000000000000000 ) ) ;
#294 = AXIS2_PLACEMENT_3D ( 'NONE', #44, #310, #95 ) ;
#295 = CC_DESIGN_DATE_AND_TIME_ASSIGNMENT ( #272, #296, ( #304 ) ) ;
#296 = DATE_TIME_ROLE ( 'creation_date' ) ;
#297 = COORDINATED_UNIVERSAL_TIME_OFFSET ( 8, 0, .AHEAD. ) ;
#298 = ADVANCED_FACE ( 'NONE', ( #170 ), #13, .T. ) ;
#299 = DIRECTION ( 'NONE',  ( -1.000000000000000000, -0.000000000000000000, -0.000000000000000000 ) ) ;
#300 = EDGE_LOOP ( 'NONE', ( #134, #183, #184, #287 ) ) ;
#301 = VECTOR ( 'NONE', #293, 1000.000000000000000 ) ;
#302 = ORIENTED_EDGE ( 'NONE', *, *, #118, .F. ) ;
#303 = ORIENTED_EDGE ( 'NONE', *, *, #118, .T. ) ;
#304 = PRODUCT_DEFINITION ( 'UNKNOWN', '', #139, #103 ) ;
#305 = CARTESIAN_POINT ( 'NONE',  ( -1.614212418857619014, 0.000000000000000000, 10.00000000000000000 ) ) ;
#306 = SECURITY_CLASSIFICATION_LEVEL ( 'unclassified' ) ;
#307 = DIRECTION ( 'NONE',  ( 0.000000000000000000, 0.000000000000000000, -1.000000000000000000 ) ) ;
#308 = CIRCLE ( 'NONE', #159, 10.00000000000000000 ) ;
#309 = DATE_TIME_ROLE ( 'classification_date' ) ;
#310 = DIRECTION ( 'NONE',  ( -1.000000000000000000, -0.000000000000000000, -0.000000000000000000 ) ) ;
#311 = APPROVAL ( #167, 'UNSPECIFIED' ) ;
#312 = CYLINDRICAL_SURFACE ( 'NONE', #294, 10.00000000000000000 ) ;
#313 = DIRECTION ( 'NONE',  ( -1.000000000000000000, -0.000000000000000000, -0.000000000000000000 ) ) ;
#314 = VERTEX_POINT ( 'NONE', #271 ) ;
#315 = CARTESIAN_POINT ( 'NONE',  ( -2.500000000000000444, 0.000000000000000000, 0.000000000000000000 ) ) ;
#316 = AXIS2_PLACEMENT_3D ( 'NONE', #41, #14, #67 ) ;
#317 = ORIENTED_EDGE ( 'NONE', *, *, #182, .T. ) ;
#318 = FACE_OUTER_BOUND ( 'NONE', #300, .T. ) ;
#319 = DIRECTION ( 'NONE',  ( 0.000000000000000000, 0.000000000000000000, 1.000000000000000000 ) ) ;
#320 = CALENDAR_DATE ( 2020, 23, 12 ) ;
#321 = DIRECTION ( 'NONE',  ( 0.000000000000000000, 0.000000000000000000, 1.000000000000000000 ) ) ;
#322 = CC_DESIGN_PERSON_AND_ORGANIZATION_ASSIGNMENT ( #148, #15, ( #275 ) ) ;
#323 =( LENGTH_UNIT ( ) NAMED_UNIT ( * ) SI_UNIT ( .MILLI., .METRE. ) );
#324 = LINE ( 'NONE', #220, #288 ) ;
#325 = ORIENTED_EDGE ( 'NONE', *, *, #267, .T. ) ;
#326 = PERSON_AND_ORGANIZATION ( #91, #160 ) ;
#327 = PRODUCT_RELATED_PRODUCT_CATEGORY ( 'detail', '', ( #32 ) ) ;
#328 = CIRCLE ( 'NONE', #36, 10.00000000000000000 ) ;
#329 = VERTEX_POINT ( 'NONE', #35 ) ;
#330 = ADVANCED_FACE ( 'NONE', ( #222 ), #196, .T. ) ;
#331 = FACE_OUTER_BOUND ( 'NONE', #18, .T. ) ;
#332 = LOCAL_TIME ( 9, 26, 20.00000000000000000, #297 ) ;
#333 = APPROVAL_ROLE ( '' ) ;
#334 = PLANE ( 'NONE',  #273 ) ;
#335 = CARTESIAN_POINT ( 'NONE',  ( 2.500000000000000888, 0.000000000000000000, 10.00000000000000000 ) ) ;
ENDSEC;
END-ISO-10303-21;
